ISO-10303-21;
HEADER;
/* Generated by software containing ST-Developer
 * from STEP Tools, Inc. (www.steptools.com) 
 */

FILE_DESCRIPTION(
/* description */ (''),
/* implementation_level */ '2;1');

FILE_NAME(
/* name */ 
'C:\\Users\\ChadR\\Dropbox\\WCB File Share\\DISC,HUB DWG UPDATES\\4804
-1212 12 IN. DIA X .156 MACHINED DISC.stp',
/* time_stamp */ '2015-08-21T11:18:17-05:00',
/* author */ ('ChadR'),
/* organization */ (''),
/* preprocessor_version */ 'ST-DEVELOPER v15.2',
/* originating_system */ 'Autodesk Inventor 2014',
/* authorisation */ '');

FILE_SCHEMA (('AUTOMOTIVE_DESIGN { 1 0 10303 214 3 1 1 }'));
ENDSEC;

DATA;
#10=MECHANICAL_DESIGN_GEOMETRIC_PRESENTATION_REPRESENTATION('',(#15,#16),
#240);
#11=SHAPE_REPRESENTATION_RELATIONSHIP('SRR','None',#252,#12);
#12=ADVANCED_BREP_SHAPE_REPRESENTATION($,(#140),#239);
#13=PLANE('',#160);
#14=PLANE('',#161);
#15=STYLED_ITEM('',(#262),#137);
#16=STYLED_ITEM('',(#261),#140);
#17=FACE_BOUND('',#42,.T.);
#18=FACE_BOUND('',#44,.T.);
#19=FACE_BOUND('',#46,.T.);
#20=FACE_BOUND('',#48,.T.);
#21=FACE_BOUND('',#50,.T.);
#22=FACE_BOUND('',#52,.T.);
#23=FACE_BOUND('',#53,.T.);
#24=FACE_BOUND('',#54,.T.);
#25=FACE_BOUND('',#55,.T.);
#26=FACE_BOUND('',#56,.T.);
#27=FACE_BOUND('',#57,.T.);
#28=FACE_BOUND('',#58,.T.);
#29=FACE_BOUND('',#59,.T.);
#30=FACE_BOUND('',#60,.T.);
#31=FACE_BOUND('',#61,.T.);
#32=FACE_BOUND('',#62,.T.);
#33=FACE_BOUND('',#63,.T.);
#34=FACE_BOUND('',#64,.T.);
#35=FACE_OUTER_BOUND('',#41,.T.);
#36=FACE_OUTER_BOUND('',#43,.T.);
#37=FACE_OUTER_BOUND('',#45,.T.);
#38=FACE_OUTER_BOUND('',#47,.T.);
#39=FACE_OUTER_BOUND('',#49,.T.);
#40=FACE_OUTER_BOUND('',#51,.T.);
#41=EDGE_LOOP('',(#101));
#42=EDGE_LOOP('',(#102));
#43=EDGE_LOOP('',(#103));
#44=EDGE_LOOP('',(#104));
#45=EDGE_LOOP('',(#105));
#46=EDGE_LOOP('',(#106));
#47=EDGE_LOOP('',(#107));
#48=EDGE_LOOP('',(#108));
#49=EDGE_LOOP('',(#109));
#50=EDGE_LOOP('',(#110));
#51=EDGE_LOOP('',(#111));
#52=EDGE_LOOP('',(#112));
#53=EDGE_LOOP('',(#113));
#54=EDGE_LOOP('',(#114));
#55=EDGE_LOOP('',(#115));
#56=EDGE_LOOP('',(#116));
#57=EDGE_LOOP('',(#117));
#58=EDGE_LOOP('',(#118));
#59=EDGE_LOOP('',(#119));
#60=EDGE_LOOP('',(#120));
#61=EDGE_LOOP('',(#121));
#62=EDGE_LOOP('',(#122));
#63=EDGE_LOOP('',(#123));
#64=EDGE_LOOP('',(#124));
#65=CIRCLE('',#143,1.8755);
#66=CIRCLE('',#144,1.8755);
#67=CIRCLE('',#146,0.1955);
#68=CIRCLE('',#147,0.1955);
#69=CIRCLE('',#149,0.1955);
#70=CIRCLE('',#150,0.1955);
#71=CIRCLE('',#152,0.1955);
#72=CIRCLE('',#153,0.1955);
#73=CIRCLE('',#155,0.1955);
#74=CIRCLE('',#156,0.1955);
#75=CIRCLE('',#158,6.);
#76=CIRCLE('',#159,6.);
#77=VERTEX_POINT('',#206);
#78=VERTEX_POINT('',#208);
#79=VERTEX_POINT('',#211);
#80=VERTEX_POINT('',#213);
#81=VERTEX_POINT('',#216);
#82=VERTEX_POINT('',#218);
#83=VERTEX_POINT('',#221);
#84=VERTEX_POINT('',#223);
#85=VERTEX_POINT('',#226);
#86=VERTEX_POINT('',#228);
#87=VERTEX_POINT('',#231);
#88=VERTEX_POINT('',#233);
#89=EDGE_CURVE('',#77,#77,#65,.T.);
#90=EDGE_CURVE('',#78,#78,#66,.T.);
#91=EDGE_CURVE('',#79,#79,#67,.T.);
#92=EDGE_CURVE('',#80,#80,#68,.T.);
#93=EDGE_CURVE('',#81,#81,#69,.T.);
#94=EDGE_CURVE('',#82,#82,#70,.T.);
#95=EDGE_CURVE('',#83,#83,#71,.T.);
#96=EDGE_CURVE('',#84,#84,#72,.T.);
#97=EDGE_CURVE('',#85,#85,#73,.T.);
#98=EDGE_CURVE('',#86,#86,#74,.T.);
#99=EDGE_CURVE('',#87,#87,#75,.T.);
#100=EDGE_CURVE('',#88,#88,#76,.T.);
#101=ORIENTED_EDGE('',*,*,#89,.F.);
#102=ORIENTED_EDGE('',*,*,#90,.F.);
#103=ORIENTED_EDGE('',*,*,#91,.F.);
#104=ORIENTED_EDGE('',*,*,#92,.F.);
#105=ORIENTED_EDGE('',*,*,#93,.F.);
#106=ORIENTED_EDGE('',*,*,#94,.F.);
#107=ORIENTED_EDGE('',*,*,#95,.F.);
#108=ORIENTED_EDGE('',*,*,#96,.F.);
#109=ORIENTED_EDGE('',*,*,#97,.F.);
#110=ORIENTED_EDGE('',*,*,#98,.F.);
#111=ORIENTED_EDGE('',*,*,#99,.T.);
#112=ORIENTED_EDGE('',*,*,#100,.F.);
#113=ORIENTED_EDGE('',*,*,#90,.T.);
#114=ORIENTED_EDGE('',*,*,#92,.T.);
#115=ORIENTED_EDGE('',*,*,#94,.T.);
#116=ORIENTED_EDGE('',*,*,#96,.T.);
#117=ORIENTED_EDGE('',*,*,#98,.T.);
#118=ORIENTED_EDGE('',*,*,#99,.F.);
#119=ORIENTED_EDGE('',*,*,#89,.T.);
#120=ORIENTED_EDGE('',*,*,#91,.T.);
#121=ORIENTED_EDGE('',*,*,#93,.T.);
#122=ORIENTED_EDGE('',*,*,#95,.T.);
#123=ORIENTED_EDGE('',*,*,#97,.T.);
#124=ORIENTED_EDGE('',*,*,#100,.T.);
#125=CYLINDRICAL_SURFACE('',#142,1.8755);
#126=CYLINDRICAL_SURFACE('',#145,0.1955);
#127=CYLINDRICAL_SURFACE('',#148,0.1955);
#128=CYLINDRICAL_SURFACE('',#151,0.1955);
#129=CYLINDRICAL_SURFACE('',#154,0.1955);
#130=CYLINDRICAL_SURFACE('',#157,6.);
#131=ADVANCED_FACE('',(#35,#17),#125,.F.);
#132=ADVANCED_FACE('',(#36,#18),#126,.F.);
#133=ADVANCED_FACE('',(#37,#19),#127,.F.);
#134=ADVANCED_FACE('',(#38,#20),#128,.F.);
#135=ADVANCED_FACE('',(#39,#21),#129,.F.);
#136=ADVANCED_FACE('',(#40,#22),#130,.T.);
#137=ADVANCED_FACE('',(#23,#24,#25,#26,#27,#28),#13,.T.);
#138=ADVANCED_FACE('',(#29,#30,#31,#32,#33,#34),#14,.F.);
#139=CLOSED_SHELL('',(#131,#132,#133,#134,#135,#136,#137,#138));
#140=MANIFOLD_SOLID_BREP('Solid1',#139);
#141=AXIS2_PLACEMENT_3D('placement',#204,#162,#163);
#142=AXIS2_PLACEMENT_3D('',#205,#164,#165);
#143=AXIS2_PLACEMENT_3D('',#207,#166,#167);
#144=AXIS2_PLACEMENT_3D('',#209,#168,#169);
#145=AXIS2_PLACEMENT_3D('',#210,#170,#171);
#146=AXIS2_PLACEMENT_3D('',#212,#172,#173);
#147=AXIS2_PLACEMENT_3D('',#214,#174,#175);
#148=AXIS2_PLACEMENT_3D('',#215,#176,#177);
#149=AXIS2_PLACEMENT_3D('',#217,#178,#179);
#150=AXIS2_PLACEMENT_3D('',#219,#180,#181);
#151=AXIS2_PLACEMENT_3D('',#220,#182,#183);
#152=AXIS2_PLACEMENT_3D('',#222,#184,#185);
#153=AXIS2_PLACEMENT_3D('',#224,#186,#187);
#154=AXIS2_PLACEMENT_3D('',#225,#188,#189);
#155=AXIS2_PLACEMENT_3D('',#227,#190,#191);
#156=AXIS2_PLACEMENT_3D('',#229,#192,#193);
#157=AXIS2_PLACEMENT_3D('',#230,#194,#195);
#158=AXIS2_PLACEMENT_3D('',#232,#196,#197);
#159=AXIS2_PLACEMENT_3D('',#234,#198,#199);
#160=AXIS2_PLACEMENT_3D('',#235,#200,#201);
#161=AXIS2_PLACEMENT_3D('',#236,#202,#203);
#162=DIRECTION('axis',(0.,0.,1.));
#163=DIRECTION('refdir',(1.,0.,0.));
#164=DIRECTION('center_axis',(0.,0.,1.));
#165=DIRECTION('ref_axis',(1.,0.,0.));
#166=DIRECTION('center_axis',(0.,0.,1.));
#167=DIRECTION('ref_axis',(1.,0.,0.));
#168=DIRECTION('center_axis',(0.,0.,-1.));
#169=DIRECTION('ref_axis',(1.,0.,0.));
#170=DIRECTION('center_axis',(0.,0.,1.));
#171=DIRECTION('ref_axis',(1.,0.,0.));
#172=DIRECTION('center_axis',(0.,0.,1.));
#173=DIRECTION('ref_axis',(1.,0.,0.));
#174=DIRECTION('center_axis',(0.,0.,-1.));
#175=DIRECTION('ref_axis',(1.,0.,0.));
#176=DIRECTION('center_axis',(0.,0.,1.));
#177=DIRECTION('ref_axis',(1.,0.,0.));
#178=DIRECTION('center_axis',(0.,0.,1.));
#179=DIRECTION('ref_axis',(1.,0.,0.));
#180=DIRECTION('center_axis',(0.,0.,-1.));
#181=DIRECTION('ref_axis',(1.,0.,0.));
#182=DIRECTION('center_axis',(0.,0.,1.));
#183=DIRECTION('ref_axis',(1.,0.,0.));
#184=DIRECTION('center_axis',(0.,0.,1.));
#185=DIRECTION('ref_axis',(1.,0.,0.));
#186=DIRECTION('center_axis',(0.,0.,-1.));
#187=DIRECTION('ref_axis',(1.,0.,0.));
#188=DIRECTION('center_axis',(0.,0.,1.));
#189=DIRECTION('ref_axis',(1.,0.,0.));
#190=DIRECTION('center_axis',(0.,0.,1.));
#191=DIRECTION('ref_axis',(1.,0.,0.));
#192=DIRECTION('center_axis',(0.,0.,-1.));
#193=DIRECTION('ref_axis',(1.,0.,0.));
#194=DIRECTION('center_axis',(0.,0.,1.));
#195=DIRECTION('ref_axis',(-1.,0.,0.));
#196=DIRECTION('center_axis',(0.,0.,-1.));
#197=DIRECTION('ref_axis',(-1.,0.,0.));
#198=DIRECTION('center_axis',(0.,0.,-1.));
#199=DIRECTION('ref_axis',(-1.,0.,0.));
#200=DIRECTION('center_axis',(0.,0.,1.));
#201=DIRECTION('ref_axis',(1.,0.,0.));
#202=DIRECTION('center_axis',(0.,0.,1.));
#203=DIRECTION('ref_axis',(1.,0.,0.));
#204=CARTESIAN_POINT('',(0.,0.,0.));
#205=CARTESIAN_POINT('Origin',(0.,0.,-16.8152797396071));
#206=CARTESIAN_POINT('',(-1.8755,0.,0.));
#207=CARTESIAN_POINT('Origin',(0.,0.,0.));
#208=CARTESIAN_POINT('',(1.8755,0.,0.156));
#209=CARTESIAN_POINT('Origin',(0.,0.,0.156));
#210=CARTESIAN_POINT('Origin',(-2.25,0.,-16.8152797396071));
#211=CARTESIAN_POINT('',(-2.4455,0.,0.));
#212=CARTESIAN_POINT('Origin',(-2.25,0.,0.));
#213=CARTESIAN_POINT('',(-2.0545,0.,0.156));
#214=CARTESIAN_POINT('Origin',(-2.25,0.,0.156));
#215=CARTESIAN_POINT('Origin',(0.,2.25,-16.8152797396071));
#216=CARTESIAN_POINT('',(-0.1955,2.25,0.));
#217=CARTESIAN_POINT('Origin',(0.,2.25,0.));
#218=CARTESIAN_POINT('',(0.1955,2.25,0.156));
#219=CARTESIAN_POINT('Origin',(0.,2.25,0.156));
#220=CARTESIAN_POINT('Origin',(2.25,0.,-16.8152797396071));
#221=CARTESIAN_POINT('',(2.0545,0.,0.));
#222=CARTESIAN_POINT('Origin',(2.25,0.,0.));
#223=CARTESIAN_POINT('',(2.4455,0.,0.156));
#224=CARTESIAN_POINT('Origin',(2.25,0.,0.156));
#225=CARTESIAN_POINT('Origin',(0.,-2.25,-16.8152797396071));
#226=CARTESIAN_POINT('',(-0.1955,-2.25,0.));
#227=CARTESIAN_POINT('Origin',(0.,-2.25,0.));
#228=CARTESIAN_POINT('',(0.1955,-2.25,0.156));
#229=CARTESIAN_POINT('Origin',(0.,-2.25,0.156));
#230=CARTESIAN_POINT('Origin',(0.,0.,0.));
#231=CARTESIAN_POINT('',(6.,7.34763812293426E-016,0.156));
#232=CARTESIAN_POINT('Origin',(0.,0.,0.156));
#233=CARTESIAN_POINT('',(6.,7.34763812293426E-016,0.));
#234=CARTESIAN_POINT('Origin',(0.,0.,0.));
#235=CARTESIAN_POINT('Origin',(0.545454545454545,-6.35775533070956E-017,
0.156));
#236=CARTESIAN_POINT('Origin',(0.545454545454545,-6.35775533070956E-017,
0.));
#237=UNCERTAINTY_MEASURE_WITH_UNIT(LENGTH_MEASURE(0.000393700787401575),
#241,'DISTANCE_ACCURACY_VALUE',
'Maximum model space distance between geometric entities at asserted c
onnectivities');
#238=UNCERTAINTY_MEASURE_WITH_UNIT(LENGTH_MEASURE(1.E-006),#242,
'DISTANCE_ACCURACY_VALUE',
'Maximum model space distance between geometric entities at asserted c
onnectivities');
#239=(
GEOMETRIC_REPRESENTATION_CONTEXT(3)
GLOBAL_UNCERTAINTY_ASSIGNED_CONTEXT((#237))
GLOBAL_UNIT_ASSIGNED_CONTEXT((#241,#247,#244))
REPRESENTATION_CONTEXT('','3D')
);
#240=(
GEOMETRIC_REPRESENTATION_CONTEXT(3)
GLOBAL_UNCERTAINTY_ASSIGNED_CONTEXT((#238))
GLOBAL_UNIT_ASSIGNED_CONTEXT((#242,#247,#244))
REPRESENTATION_CONTEXT('','3D')
);
#241=(
CONVERSION_BASED_UNIT('__CONSTANT UNIT inch',#243)
LENGTH_UNIT()
NAMED_UNIT(#246)
);
#242=(
LENGTH_UNIT()
NAMED_UNIT(*)
SI_UNIT(.MILLI.,.METRE.)
);
#243=LENGTH_MEASURE_WITH_UNIT(LENGTH_MEASURE(25.4),#242);
#244=(
NAMED_UNIT(*)
SI_UNIT($,.STERADIAN.)
SOLID_ANGLE_UNIT()
);
#245=DIMENSIONAL_EXPONENTS(0.,0.,0.,0.,0.,0.,0.);
#246=DIMENSIONAL_EXPONENTS(1.,0.,0.,0.,0.,0.,0.);
#247=(
CONVERSION_BASED_UNIT('degree',#249)
NAMED_UNIT(#245)
PLANE_ANGLE_UNIT()
);
#248=(
NAMED_UNIT(*)
PLANE_ANGLE_UNIT()
SI_UNIT($,.RADIAN.)
);
#249=PLANE_ANGLE_MEASURE_WITH_UNIT(PLANE_ANGLE_MEASURE(0.01745329252),#248);
#250=SHAPE_DEFINITION_REPRESENTATION(#251,#252);
#251=PRODUCT_DEFINITION_SHAPE('',$,#254);
#252=SHAPE_REPRESENTATION('',(#141),#239);
#253=PRODUCT_DEFINITION_CONTEXT('part definition',#258,'design');
#254=PRODUCT_DEFINITION('4804-1212 12 IN. DIA X .156 MACHINED DISC',
'4804-1212 12 IN. DIA X .156 MACHINED DISC',#255,#253);
#255=PRODUCT_DEFINITION_FORMATION('',$,#260);
#256=PRODUCT_RELATED_PRODUCT_CATEGORY(
'4804-1212 12 IN. DIA X .156 MACHINED DISC',
'4804-1212 12 IN. DIA X .156 MACHINED DISC',(#260));
#257=APPLICATION_PROTOCOL_DEFINITION('international standard',
'automotive_design',2009,#258);
#258=APPLICATION_CONTEXT(
'Core Data for Automotive Mechanical Design Process');
#259=PRODUCT_CONTEXT('part definition',#258,'mechanical');
#260=PRODUCT('4804-1212 12 IN. DIA X .156 MACHINED DISC',
'4804-1212 12 IN. DIA X .156 MACHINED DISC',$,(#259));
#261=PRESENTATION_STYLE_ASSIGNMENT((#263));
#262=PRESENTATION_STYLE_ASSIGNMENT((#264));
#263=SURFACE_STYLE_USAGE(.BOTH.,#265);
#264=SURFACE_STYLE_USAGE(.BOTH.,#266);
#265=SURFACE_SIDE_STYLE($,(#267));
#266=SURFACE_SIDE_STYLE($,(#268));
#267=SURFACE_STYLE_FILL_AREA(#269);
#268=SURFACE_STYLE_FILL_AREA(#270);
#269=FILL_AREA_STYLE($,(#271));
#270=FILL_AREA_STYLE($,(#272));
#271=FILL_AREA_STYLE_COLOUR($,#273);
#272=FILL_AREA_STYLE_COLOUR($,#274);
#273=COLOUR_RGB('',0.745098039215686,0.737254901960784,0.729411764705882);
#274=COLOUR_RGB('',0.603921568627451,0.603921568627451,0.627450980392157);
ENDSEC;
END-ISO-10303-21;
